Verse 1 YouTube Version

(/) Slide Up  (\) Slide Down  (h) Hammer On  (p) Pull Off  (b) Bend (r) Release (v) Vibrato


E|-----------------------------------------------2--------------2--2--2----------
B|--3-----------------------------3--3--3--------1--------------1--0--1----------
G|--1-----------------------------1--1--1--------2--------------2--2--2----------
D|--0--------2--2--4--4--2--2-----2--2--2----------------------------------------
A|--2--------0--0--0--0--0--0-----2--2--2----------------------------------------
E|-----------------------------0-----------0--2-----2--2--0--2-----------2--2----



E|-----------------------------------------
B|--------------------------3--3--3--------
G|--------------------------1--1--1--------
D|--2--2--4--4--------2-----0--0--0--------
A|--0--0--0--0--3--4--------2--2--2--0--0--
E|-----------------------0-----------------
http://www.guitartabcreator.com
Guitar Tab Creator is intended to store guitar tab created through the tool. It currently does not support in-line text editing. Any text you place in here will be lost. If you need to comment on your tab, please use the "Tab Notes" section located below.