KTTH Verse 1 Audio Version

(/) Slide Up  (\) Slide Down  (h) Hammer On  (p) Pull Off  (b) Bend (r) Release (v) Vibrato

E|---------------9---9---9---9-----9-----------
B|----3----------10--10--10--10----10----------
G|----1----------9---9---9---9-----9-----------
D|----0----------------------------------------
A|----2----------0-----------0-----0-----0-----
E|------------------------------------------0--



E|------------10--10--12--10--
B|------------9---9---9---9---
G|------------9---9---9---9---
D|----------------------------
A|----------------------------
E|--0----0----0-----------0---
http://www.guitartabcreator.com
Guitar Tab Creator is intended to store guitar tab created through the tool. It currently does not support in-line text editing. Any text you place in here will be lost. If you need to comment on your tab, please use the "Tab Notes" section located below.