Jesu Joy Of Man's Desiring

(/) Slide Up  (\) Slide Down  (h) Hammer On  (p) Pull Off  (b) Bend (r) Release (v) Vibrato


E|-----------------------0--------3--2--3---------------------0---------------------------------
B|-----------0--3--1--1-----3--3-----------3--0-------0--1h3-----3--1--0-----0------------------
G|-----0--2--------------------------------------0h2----------------------2-----0-------2-------
D|-----------0--------2-----------------2--------2---------------------------------4h5-----0h4--
A|-----------------------------2-------------------------0-------2--------3--------5------------
E|--3--------------------------------------------------------------------------------------2----



E|--------------------------------------0--------3--2--3----------------------------------------
B|-----1--0-----0--------0--3--0--1--1-----3--3-----------3--0-------0-----3--1--0--------------
G|--2--------2-----0--2-----------------------------------------0h2-----------------2--0-----0--
D|-----0-----------------0-----------2-----------------2--------0-------------------------0-----
A|--------------------------------------------2-------------------------3--------4--------------
E|--------------3-------------------------------------------------------------------------------



E|--------------3--------3-----------------------------------------------------------------------
B|--------0--3-----3--0--0-----1--3--0--3--1-----0-----------------------1--0--1-----------------
G|-----0-----------------0-----0--2--0--0--0-----0--2-----------2--0--2-----------2-----------2--
D|--4--------------------------------2--0--------0--0--0--2--4--------0--------0-----------------
A|--------------2-----------------------2--------------------------------------------4--0--4-----
E|-----3-----------------3--2--0--2--------0--2--3--0--------------------------------------------



E|-----------3-------------------------------
B|--1--0-----0-----1--3--0--0-----0h1--0-----
G|--------2--0-----0--2-----0--2----------2--
D|--0-----------------------2----------0-----
A|-----------------------2-----3----------3--
E|-----------3--2--0--2----------------------
http://www.guitartabcreator.com
Guitar Tab Creator is intended to store guitar tab created through the tool. It currently does not support in-line text editing. Any text you place in here will be lost. If you need to comment on your tab, please use the "Tab Notes" section located below.