Seven Nation Army

(/) Slide Up  (\) Slide Down  (h) Hammer On  (p) Pull Off  (b) Bend (r) Release (v) Vibrato

E|---------------------------------------|---------------------------------------|----
B|---------------------------------------|---------------------------------------|----
G|---------------------------------------|---------------------------------------|----
D|---------------------------------------|---------------------------------------|----
A|--------------5------------------------|--------------5------------------------|----
E|----7----7---------7----5----3----2----|----7----7---------7----5----3----2----|----



E|--------------------------------------------|--------------------------------------------|----
B|--------------------------------------------|--------------------------------------------|----
G|--------------------------------------------|--------------------------------------------|----
D|----5----5----5----5----5----5----5----5----|----7----7----7----7----7----7----7----7----|----
A|----5----5----5----5----5----5----5----5----|----7----7----7----7----7----7----7----7----|----
E|----3----3----3----3----3----3----3----3----|----5----5----5----5----5----5----5----5----|----



E|----------------------------------------|-----------------------------------|----
B|----------------------------------------|-----------------------------------|----
G|----9----9----12----9----7----5----4----|----9----9----12----9----7----5----|----
D|----9----9----12----9----7----5----4----|----9----9----12----9----7----5----|----
A|----7----7----10----7----5----3----2----|----7----7----10----7----5----3----|----
E|----------------------------------------|-----------------------------------|----
http://www.guitartabcreator.com
Guitar Tab Creator is intended to store guitar tab created through the tool. It currently does not support in-line text editing. Any text you place in here will be lost. If you need to comment on your tab, please use the "Tab Notes" section located below.