Santa Clause Is Coming To Town - Key C

(/) Slide Up  (\) Slide Down  (h) Hammer On  (p) Pull Off  (b) Bend (r) Release (v) Vibrato

E|--3--0--1--3--3--|--3--5--7--8--8--|--0--1--3--3--3--5--3--1--1--|--0--3-----0-----1--------|--
B|-----------------|-----------------|-----------------------------|--------1-----3-----0--1--|--
G|-----------------|-----------------|-----------------------------|--------------------------|--
D|-----------------|-----------------|-----------------------------|--------------------------|--
A|-----------------|-----------------|-----------------------------|--------------------------|--
E|-----------------|-----------------|-----------------------------|--------------------------|--



E|--3--0--1--3--3--|--3--5--7--8--8--|--0--1--3--3--3--5--3--1--1--|--0--3-----0-----1--------|--
B|-----------------|-----------------|-----------------------------|--------1-----3-----0--1--|--
G|-----------------|-----------------|-----------------------------|--------------------------|--
D|-----------------|-----------------|-----------------------------|--------------------------|--
A|-----------------|-----------------|-----------------------------|--------------------------|--
E|-----------------|-----------------|-----------------------------|--------------------------|--



E|----8----10----8----7----8----5----5----|----8----10----8----7----8----5----|---------
B|----------------------------------------|-----------------------------------|---------
G|----------------------------------------|-----------------------------------|---------
D|----------------------------------------|-----------------------------------|---------
A|----------------------------------------|-----------------------------------|---------
E|----------------------------------------|-----------------------------------|---------



E|----10----12----10----9----10----7----7----7----|----7----8----10----8----7----5----3----|----
B|------------------------------------------------|----------------------------------------|----
G|------------------------------------------------|----------------------------------------|----
D|------------------------------------------------|----------------------------------------|----
A|------------------------------------------------|----------------------------------------|----
E|------------------------------------------------|----------------------------------------|----



E|--3--0--1--3--3--|--3--5--7--8--8--|--0--1--3--3--3--5--3--1--1--|--0--3-----0-----1--7--8--|--
B|-----------------|-----------------|-----------------------------|--------1-----3-----------|--
G|-----------------|-----------------|-----------------------------|--------------------------|--
D|-----------------|-----------------|-----------------------------|--------------------------|--
A|-----------------|-----------------|-----------------------------|--------------------------|--
E|-----------------|-----------------|-----------------------------|--------------------------|--
http://www.guitartabcreator.com
Guitar Tab Creator is intended to store guitar tab created through the tool. It currently does not support in-line text editing. Any text you place in here will be lost. If you need to comment on your tab, please use the "Tab Notes" section located below.