Guitar Shuffle #1

(/) Slide Up  (\) Slide Down  (h) Hammer On  (p) Pull Off  (b) Bend (r) Release (v) Vibrato
E|--------------|--------------|--------------|--------------|--------------|--------------|--
B|--------------|--------------|--------------|--------------|--------------|--------------|--
G|--------------|--------------|--------------|--------------|--2--2--------|--2--2--------|--
D|--------------|--------------|--2--2--------|--2--2--------|--0--0--3--4--|--0--0--3--4--|--
A|--2--2--------|--2--2--------|--0--0--3--4--|--0--0--3--4--|--------------|--------------|--
E|--0--0--3--4--|--0--0--3--4--|--------------|--------------|--------------|--------------|--



E|--------------|--------------|--------------|--------------|-----|--
B|--------------|--------------|--------------|--------------|-----|--
G|--------------|--------------|--------------|--------------|-----|--
D|--2--2--------|--2--2--------|--------------|--------------|-----|--
A|--0--0--3--4--|--0--0--3--4--|--2--2--------|--2--2--------|--2--|--
E|--------------|--------------|--0--0--3--4--|--0--0--3--4--|--0--|--
http://www.guitartabcreator.com
Guitar Tab Creator is intended to store guitar tab created through the tool. It currently does not support in-line text editing. Any text you place in here will be lost. If you need to comment on your tab, please use the "Tab Notes" section located below.