Blues #2

(/) Slide Up  (\) Slide Down  (h) Hammer On  (p) Pull Off  (b) Bend (r) Release (v) Vibrato

E|-------------------|---0-------------------|-------------------|-------------------------|---
B|-------------------|-----------------------|-------------------|-------------------------|---
G|-------------------|-------2b3p0-----------|-------------------|-----------------0-------|---
D|-----------2-------|---------------2---2---|-----------2-------|---------0---2-------2---|---
A|-------------------|-----------------------|-------------------|---0h2-------------------|---
E|---0---3-------0---|-----------------------|---0---3-------0---|-------------------------|---



E|--------------|------------------------|------------------|--
B|--------------|-------3--5-------------|------------------|--
G|--------------|--3/4--------4\2--0-----|------------------|--
D|--------2-----|---------------------2--|------------2-----|--
A|--------------|------------------------|--0h1p0--------2--|--
E|--0--3-----0--|------------------------|---------3-----0--|--
http://www.guitartabcreator.com
Guitar Tab Creator is intended to store guitar tab created through the tool. It currently does not support in-line text editing. Any text you place in here will be lost. If you need to comment on your tab, please use the "Tab Notes" section located below.