Always On The Run

(/) Slide Up  (\) Slide Down  (h) Hammer On  (p) Pull Off  (b) Bend (r) Release (v) Vibrato


E|-------------------------------|---------------------|-------------------------|---
B|-------------------------------|---------------------|-------------------------|---
G|-------------------------------|---------------------|-------------------------|---
D|-------------------------------|-------5p0-------2---|-------------------------|---
A|-------------7---5p4-------5---|---------------------|-------7---5p4-------5---|---
E|---------0-------------0-------|---0---------0-------|---0-------------0-------|---



E|-------------------------|-------------------|-----------------|-------------------|---
B|-------------------------|-------------------|-----------------|-------------------|---
G|-------------------------|-------------------|-----------------|-------------------|---
D|---0---------------0h2---|---5---7-----------|---5-------------|---5---7-----------|---
A|-------5p2---------------|-----------5---7---|-------5---5h7---|-----------5---7---|---
E|-------------3p0---------|-------------------|-----------------|-------------------|---



E|---11/12---12---|---
B|---11-12---12---|---
G|---11-12---12---|---
D|----------------|---
A|----------------|---
E|----------------|---
http://www.guitartabcreator.com
Guitar Tab Creator is intended to store guitar tab created through the tool. It currently does not support in-line text editing. Any text you place in here will be lost. If you need to comment on your tab, please use the "Tab Notes" section located below.