Sky HIgh

(/) Slide Up  (\) Slide Down  (h) Hammer On  (p) Pull Off  (b) Bend (r) Release (v) Vibrato


E|--6--6--6-----4p3-----3------------|-----0-----------0------------------0-----------0-----------
B|-----------7-------4-----4v--4-----|--------0-----------0------------------0-----------0--------
G|--------------------------------3--|-----------0-----------0------------------0-----------0-----
D|-----------------------------------|------------------------------------------------------------
A|-----------------------------------|--3-----------3-----------3\5--5/3-----------3--------------
E|-----------------------------------|------------------------------------------------------------



E|-------0-----------0--------------------0-----------0-------------0-----------0--------------
B|----------0-----------0--------------------0-----------0-------------0-----------0-----------
G|-------------0-----------0--------------------0-----------0-------------0-----------0--------
D|---------------------------------2v----------------------------------------------------------
A|--3\5-----------5-----------5/3--3---3-----------3-----------3\5-----------5-----------------
E|---------------------------------------------------------------------------------------5-----



E|-----0-----------0-------------0-----0--0--0--
B|--------0-----------0-------------0--0--0--0--
G|-----------0-----------0-------------0--0--0--
D|-------------------------------------4--4--4--
A|-------------------------------------5--------
E|--3-----------3-----------3\5--------5--------
http://www.guitartabcreator.com
Guitar Tab Creator is intended to store guitar tab created through the tool. It currently does not support in-line text editing. Any text you place in here will be lost. If you need to comment on your tab, please use the "Tab Notes" section located below.