Pity

(/) Slide Up  (\) Slide Down  (h) Hammer On  (p) Pull Off  (b) Bend (r) Release (v) Vibrato

Stave 1:

E|---------------------------------------------------------------------------------------
B|---------------------------------------------------------------------------------------
G|---------------------------------------------------------------------------------------
D|---------------------------2--------2--------0--2-----2--------2--------2--------5--5--
A|---------------------3--3-----3--3-----3--3--------3-----3--3-----3--3-----3--3--------
E|--3------------------------------------------------------------------------------------

Stave 2:

E|--------------------------
B|--------------------------
G|--------------------------
D|--------------------------
A|--0--3-----0--3-----5--3--
E|--------3--------3--------

Stave 3:

E|------------------------------------------------------------------------------------------
B|------------------------------------------------------------------------------------------
G|------------------------------------------------------------------------------------------
D|------------------------------------------------------------------------------------------
A|---------------------------------------------------------3--3--3--3--3--3--3--3--3--3--3--
E|--3--3--3--3--3--3--3--3--3--3--3--3--3--3------2-----------------------------------------

Stave 4:

E|--------------------------------------------------------------------------------------------------
B|--------------------------------------------------------------------------------------------------
G|--------------------------------------------------------------------------------------------------
D|--------------------------------------------------------------------------------------------------
A|--------------------------------------------------------------------------5--5--5--5--5--5--5--5--
E|--3--3--3--3--3--3--3--3--3--3--3--3--3--3--3--3--0--0--0--0--0--0--0--0--------------------------

http://www.guitartabcreator.com
Guitar Tab Creator is intended to store guitar tab created through the tool. It currently does not support in-line text editing. Any text you place in here will be lost. If you need to comment on your tab, please use the "Tab Notes" section located below.