POPSONG

(/) Slide Up  (\) Slide Down  (h) Hammer On  (p) Pull Off  (b) Bend (r) Release (v) Vibrato

intro
E|--3--3-----3---------3--3-----3---------3--3-----3---------3--3-----3-------
B|--3--------------3---3--------------3---0--------------0---0--------------3-
G|--0----0-----0-------0----0-----0-------0----0-----0-------0----0-----0-----
D|--2-----2-----2------2-----2-----2------0-----0-----0------0-----0-----0----
A|--3------------3-----3------------3-----2------------2-----2------------2---
E|--0------------------0------------------3------------------3----------------

-3--3-----3---------3--3-----3---------3--3-----3---------3--3-----3-------
-1--------------1---1--------------1---3--------------3---3--------------3-
-0----0-----0-------0----0-----0-------2----2-----2-------2----2-----2-----
-2-----2-----2------2-----2-----2------0-----0-----0------0-----0-----0----
-3------------3-----3------------3-----0------------0-----0------------0---
-0------------------0------------------0------------------0----------------

--3--3-----3---------3--3-----3---------3--3-----3---------3--3-----3-------
--3--------------3---3--------------3---0--------------0---0--------------3-
--0----0-----0-------0----0-----0-------0----0-----0-------0----0-----0-----
--2-----2-----2------2-----2-----2------0-----0-----0------0-----0-----0----
--3------------3-----3------------3-----2------------2-----2------------2---
--0------------------0------------------3------------------3----------------

-3--3-----3---------3--3-----3---------3--3-----3---------3--3-----3-------
-1--------------1---1--------------1---3--------------3---3--------------3-
-0----0-----0-------0----0-----0-------2----2-----2-------2----2-----2-----
-2-----2-----2------2-----2-----2------0-----0-----0------0-----0-----0----
-3------------3-----3------------3-----0------------0-----0------------0---
-0------------------0------------------0------------------0----------------

chorus

chords: Cadd9,G,C,Dsus
pattern: D-D-U--U-D-U-D-D-U 2 bars each chord(THIS TWICE)

Cadd9 G C Dsus
E|--3-----3-----3-----3
B|--3-----0-----1-----3
G|--0-----0-----0-----2
D|--2-----0-----2-----0
A|--3-----2-----3-----0
E|--0-----3-----0-----0 http://www.guitartabcreator.com
Guitar Tab Creator is intended to store guitar tab created through the tool. It currently does not support in-line text editing. Any text you place in here will be lost. If you need to comment on your tab, please use the "Tab Notes" section located below.