Attempt 1

(/) Slide Up  (\) Slide Down  (h) Hammer On  (p) Pull Off  (b) Bend (r) Release (v) Vibrato


E|----------------------------------------------------------------------------------------------------
B|----------------------------------------------------------------------------------------------------
G|----------------------------------------------------------------------------------------------------
D|--------------4--------5--------3-----------------4--------5--------3-----------------4--------3----
A|-----4-----2-----2--3-----3--1-----1-----4-----2-----2--3-----3--1-----1-----4-----2-----2--1-----1-
E|--2-----2-----------------------------2-----2-----------------------------2-----2-------------------



E|-------------------------------------------
B|-------------------------------------------
G|-------------------------------------------
D|----5--------------4--------3--------5-----
A|-3--------4-----2-----2--1-----1--3-----3--
E|-------2-----2-----------------------------

http://www.guitartabcreator.com
Guitar Tab Creator is intended to store guitar tab created through the tool. It currently does not support in-line text editing. Any text you place in here will be lost. If you need to comment on your tab, please use the "Tab Notes" section located below.