Good Girls Bad Guys Solo

(/) Slide Up  (\) Slide Down  (h) Hammer On  (p) Pull Off  (b) Bend (r) Release (v) Vibrato
E|------17b18--15--17b18--15--13------------13--17--15--13--15--13--15--13------13-----------------
B|--18----------------------------------15----------------------------------15------15-------------
G|----------------------------------14--------------------------------------------------14--15-----
D|-------------------------------------------------------------------------------------------------
A|-------------------------------------------------------------------------------------------------
E|-------------------------------------------------------------------------------------------------



E|---------------------------17------20------20--18--17------20v----20--18--17--18--17--15--17-----
B|-------------------18----------------------------------20----------------------------------------
G|--14-------17------------------------------------------------------------------------------------
D|------15v------15------15------15------15--------------------------------------------------------
A|-------------------------------------------------------------------------------------------------
E|-------------------------------------------------------------------------------------------------



E|--15--13--15--13------------------------------13------13--17--13--17-------
B|------------------15--------------15------15------15-----------------------
G|------------------------------14------14-----------------------------------
D|--------------------------15-----------------------------------------------
A|----------------------17---------------------------------------------------
E|---------------------------------------------------------------------------



E|-------------------------------------------------------------------------------------------------
B|-------------------------------------------------------------------------------------------------
G|--------------12--14--15--------------12--14--15--------------14--15--17--14--15--17-------------
D|--12--14--15--------------12--14--15--------------14--15--17--------------------------15--17-----
A|-------------------------------------------------------------------------------------------------
E|-------------------------------------------------------------------------------------------------



E|------------------21--22~~~--------------15--17--18--20--18--17---------------------------------
B|-----------------------------15--17--18--------------------------20--18--17---------------------
G|------15--17--19-------------------------------------------------------------19--17--15--17-----
D|--19--------------------------------------------------------------------------------------------
A|------------------------------------------------------------------------------------------------
E|------------------------------------------------------------------------------------------------



E|--------------------------17--22--17--------------17--21b21------
B|----------------------18--------------18------18-------------18--
G|--19--17--15------19----------------------19---------------------
D|--------------19-------------------------------------------------
A|-----------------------------------------------------------------
E|-----------------------------------------------------------------



E|--------------------------------------------17--13--22------------------------------------------
B|--18/17--18--17-----------------------------------------18--15--22--18--15----------------------
G|-----------------14--12--14/19--14--12--22----------------------------------21--14--12--14--19--
D|------------------------------------------------------------------------------------------------
A|------------------------------------------------------------------------------------------------
E|------------------------------------------------------------------------------------------------



E|-----------------------------------------------------------------------------
B|------15--17--18--17--15-----------------------------------------------------
G|--14----------------------17--15--14-----------------------------------------
D|--------------------------------------17--15--14--12-------------------------
A|------------------------------------------------------15--13--12-------------
E|------------------------------------------------------------------15--13--12\
http://www.guitartabcreator.com
Guitar Tab Creator is intended to store guitar tab created through the tool. It currently does not support in-line text editing. Any text you place in here will be lost. If you need to comment on your tab, please use the "Tab Notes" section located below.