Fall Out Boy 'Take Over, The Breaks Over' Solo(s) alternative

(/) Slide Up  (\) Slide Down  (h) Hammer On  (p) Pull Off  (b) Bend (r) Release (v) Vibrato


E|-----------------------------------------------------------------------------------------------
B|-----------------------------------------------------------------------------------------------
G|--------------------------------------------------------6--7--6--4--6--9--7--6-----------------
D|-----------6--7--6--4--6--9--7--6--------------4--6--7--------------------------6--7-----4-----
A|--4--6--7--------------------------6--7-----4-----------------------------------------7--------
E|-----------------------------------------7-----------------------------------------------------



E|----------------------------------------------------------------------------------------------------
B|------------12------12------12--------------------12------12------12-----------------12------12-----
G|--------------------------------11--11b12-----------------------------13--13b14---------------------
D|--4/14--14------14------13-----------------9--11------11------14-----------------14------14---------
A|----------------------------------------------------------------------------------------------------
E|----------------------------------------------------------------------------------------------------



E|---------------------------------------------------------
B|------12-------------------------------------------------
G|----------11--11b12--6--8--9--11--11--11--11--11--11--9--
D|--13-----------------------------------------------------
A|---------------------------------------------------------
E|---------------------------------------------------------
http://www.guitartabcreator.com
Guitar Tab Creator is intended to store guitar tab created through the tool. It currently does not support in-line text editing. Any text you place in here will be lost. If you need to comment on your tab, please use the "Tab Notes" section located below.