Fall Out Boy 'Take Over, The Breaks Over' Solo(s)

(/) Slide Up  (\) Slide Down  (h) Hammer On  (p) Pull Off  (b) Bend (r) Release (v) Vibrato


E|--------------------------------------------------------------------------------------------------
B|-----------------------------------------------------------------------------5--------------5-----
G|-----------------------------------------------------------4--6--4--4-----4-----7--6--4--6--------
D|-----------6--7--6--6--4--6--9--7--6--------------4--6--7--------------7--------------------------
A|--4--6--7-----------------------------6--7--4-----------------------------------------------------
E|-----------------------------------------------7--------------------------------------------------



E|---------------------------------------------------------------------------------------------------
B|--7--5------12------12------12-------------------------12------12------12----------------------12--
G|--------------------------------11--11--11--11-----------------------------13--13--13--13----------
D|--------14------14------13----------------------9--11------11------14----------------------14------
A|---------------------------------------------------------------------------------------------------
E|---------------------------------------------------------------------------------------------------



E|---------------------------------------------------------------------
B|------12------12-----------------------------------------------------
G|------------------11--11--11--11--6/8/9/9/11--11--11--11--11--11--9--
D|--14------13---------------------------------------------------------
A|---------------------------------------------------------------------
E|---------------------------------------------------------------------
http://www.guitartabcreator.com
Guitar Tab Creator is intended to store guitar tab created through the tool. It currently does not support in-line text editing. Any text you place in here will be lost. If you need to comment on your tab, please use the "Tab Notes" section located below.