Time is precious

(/) Slide Up  (\) Slide Down  (h) Hammer On  (p) Pull Off  (b) Bend (r) Release (v) Vibrato
E|--------------------------
B|--------------------------
G|--------------------------
D|--0--0--------------------
A|--------3--3--1--1--1--1--
E|--------------------------



E|-----------------------------------------------------------------------------
B|-----------------------------------------------------------------------------
G|-----------------------------------------------------------------------------
D|--0--0--0--3--3--3--3--0--0--0--3--3--3--3--0--0--0--3--3--3--3--5--6--5--3--
A|-----------------------------------------------------------------------------
E|-----------------------------------------------------------------------------



E|-----------------------------------
B|-----------------------------------
G|-----------------------------------
D|--0--0--0--5--5--5--3--3--3--6--5--
A|-----------------------------------
E|-----------------------------------



E|-----------------------------------------------------------------------------------------------------------------------------
B|-----------------------------------------------------------------------------------------------------------------------------
G|-----------------------------------------------------------------------------------------------------------------------------
D|--5--5--5--5--3--3--3--3--6--6--6--6--8--8--8--8--0--0--0--3--3--3--3--0--0--0--3--3--3--3--0--0--0--3--3--3--3--5--6--5--3--
A|-----------------------------------------------------------------------------------------------------------------------------
E|-----------------------------------------------------------------------------------------------------------------------------
http://www.guitartabcreator.com
Guitar Tab Creator is intended to store guitar tab created through the tool. It currently does not support in-line text editing. Any text you place in here will be lost. If you need to comment on your tab, please use the "Tab Notes" section located below.