Use Somebody by Kings of Leon via Rocksmith

(/) Slide Up  (\) Slide Down  (h) Hammer On  (p) Pull Off  (b) Bend (r) Release (v) Vibrato
E|--------------------------------------------------
B|--8--8--8--8--8--8--8--8--8--8--8--8--8--8--8--8--
G|--9--9--9--9--9--9--9--9--9--9--9--9--9--9--9--9--
D|--------------------------------------------------
A|--------------------------------------------------
E|--------------------------------------------------



E|--7--7--7--8--8--8--10--10--10b12--8--8--8--0--0--0--
B|-----------------------------------------------------
G|-----------------------------------------------------
D|-----------------------------------------------------
A|-----------------------------------------------------
E|-----------------------------------------------------



E|--------------------------------------------
B|--------------------------------------------
G|--------------------------------------------
D|--10--10--10--10--10--10--3--3--3--3--3--3--
A|--10--10--10--10--10--10--3--3--3--3--3--3--
E|--8---8---8---0---0---0---1--1--1--1--1--1--



E|-----------------------------------------
B|-----------------------------------------
G|-----------------------------------------
D|--7--7--7--10--10--10--3--3--3--3--3--3--
A|--7--7--7--10--10--10--3--3--3--3--3--3--
E|--5--5--5--8---8---8---1--1--1--1--1--1--



E|--7--7--7--8--8--8--10--10--7--7--7--8--8--8--0--0--
B|----------------------------------------------------
G|----------------------------------------------------
D|----------------------------------------------------
A|----------------------------------------------------
E|----------------------------------------------------



E|--5--5--5--3--3--3--3--3--------------------------
B|--------------------------3--3--3--1--1--1--1--1--
G|--------------------------------------------------
D|--------------------------------------------------
A|--------------------------------------------------
E|--------------------------------------------------



E|--7--7--7--8--8--8--10--10--10b12--8--8--8--0--0--
B|--------------------------------------------------
G|--------------------------------------------------
D|--------------------------------------------------
A|--------------------------------------------------
E|--------------------------------------------------



E|--5--5--5--3--3--3--3--3--------------------------
B|--------------------------3--3--3--1--1--1--1--1--
G|--------------------------------------------------
D|--------------------------------------------------
A|--------------------------------------------------
E|--------------------------------------------------



E|--------------------------------------------------
B|--------------------------------------------------
G|--------------------------------------------------
D|--7--7--7--7--7--7--7--7--7--7--7--7--7--7--7--7--
A|--5--5--5--5--5--5--5--5--5--5--5--5--5--5--5--5--
E|--------------------------------------------------



E|--------------------------------------------------
B|--------------------------------------------------
G|--------------------------------------------------
D|--------------------------------------------------
A|--4--4--4--4--4--4--4--4--4--4--4--4--4--4--4--4--
E|--2--2--2--2--2--2--2--2--2--2--2--2--2--2--2--2--



E|--------------------------------------------------
B|--------------------------------------------------
G|--------------------------------------------------
D|--7--7--7--7--7--7--7--7--7--7--7--7--7--7--7--7--
A|--5--5--5--5--5--5--5--5--5--5--5--5--5--5--5--5--
E|--------------------------------------------------



E|-----------------------------
B|--------------------------4--
G|--------------------------4--
D|--------------------------4--
A|--4--4--4--4--4--4--4--4--2--
E|--2--2--2--2--2--2--2--2-----



E|-------------------------------------------------------------------------------
B|-------------------------------------------------------------------------------
G|--2\9--9--9--9--12--12--12--12--------------10--10--10--10--9--9b11r9----------
D|--------------------------------10--10--10-----------------------------12--10--
A|-------------------------------------------------------------------------------
E|-------------------------------------------------------------------------------



E|-----------------------------------------------------------------------------
B|-----------------------------------------------------------------------------
G|--9--9--9--9--12--12--12--12--------------10--10--10--10--9--9b11r9----------
D|------------------------------10--10--10-----------------------------12--10--
A|-----------------------------------------------------------------------------
E|-----------------------------------------------------------------------------



E|--0--0--0--0--3--3--3--3-------------------------
B|-----------------------------------------1-------
G|--------------------------2--2--2--0--2-----2--2b
D|-------------------------------------------------
A|-------------------------------------------------
E|-------------------------------------------------
http://www.guitartabcreator.com
Guitar Tab Creator is intended to store guitar tab created through the tool. It currently does not support in-line text editing. Any text you place in here will be lost. If you need to comment on your tab, please use the "Tab Notes" section located below.