Plug In Baby by Muse via Rocksmith

(/) Slide Up  (\) Slide Down  (h) Hammer On  (p) Pull Off  (b) Bend (r) Release (v) Vibrato

E|----------------------------------------------------
B|-----------------------------------7h8--7-----------
G|--------6--------6--7-----6--7--9----------9--7--6--
D|--8--9-----8--9--------9----------------------------
A|----------------------------------------------------
E|----------------------------------------------------



E|-------------------------------------------------------
B|--------------------------------7--7h8--7--6--7--6--7--
G|-----6--7-----6--7--9--6--7--9-------------------------
D|--9--------9-------------------------------------------
A|-------------------------------------------------------
E|-------------------------------------------------------
http://www.guitartabcreator.com
Guitar Tab Creator is intended to store guitar tab created through the tool. It currently does not support in-line text editing. Any text you place in here will be lost. If you need to comment on your tab, please use the "Tab Notes" section located below.