In Bloom by Nirvana via Rocksmith

(/) Slide Up  (\) Slide Down  (h) Hammer On  (p) Pull Off  (b) Bend (r) Release (v) Vibrato
E|--------------------------------------------
B|--------------------------------------------
G|--------------------------------------------
D|--------------------------------------------
A|--8--8--8--5--3--3--3--5--6-----6--7--8--8--
E|--6--6--6--3--1--1--1--3--4--0--4--5--6--6--



E|-----------------------------------------------------------------------
B|-----------------------------------------------------------------------
G|-----------------------------------------------------------------------
D|--------------------------------8--8--8--8--8--------------------------
A|--8--8--8--8--8--4--4--4--4--4--6--6--6--6--6--9--9--9--9--7--7--7--7--
E|--6--6--6--6--6--2--2--2--2--2-----------------7--7--7--7--5--5--5--5--



E|-----------------------------------------------------------
B|-----------------------------------------------------------
G|-----------------------------------------------------------
D|--------------------------------8--8--8--8--8--------------
A|--8--8--8--8--8--4--4--4--4--4--6--6--6--6--6--9--9--7--7--
E|--6--6--6--6--6--2--2--2--2--2-----------------7--7--5--5--



E|--------------------------------------------------------------------------------
B|--------------------------------------------------------------------------------
G|--------------------------------------------------------------------------------
D|--------------------------------8--8--8--8--8--8--8--8--------------7--7--7--7--
A|--8--8--8--8--8--4--4--4--4--4--6--6--6--6--6--6--6--6--9--9--9--9--5--5--5--5--
E|--6--6--6--6--6--2--2--2--2--2--------------------------7--7--7--7--------------



E|--------------------------------------------------
B|--------------------------------------------------
G|--------------------------------------------------
D|--------------------------------------------------
A|--8--8--5--5--8--8--5--5--8--8--5--5--8--8--5--5--
E|--6--6--3--3--6--6--3--3--6--6--3--3--6--6--3--3--



E|--------------------------
B|--------------------------
G|--------------------------
D|--5--5--5--8--5--5--5--8--
A|--3--3--3--6--3--3--3--6--
E|--------------------------



E|--12b14---------------------------------------------------------------------------
B|---------14b16-----7--------------------------------------------------------------
G|----------------6-----8--6--8b10--------6--8--8b10--6--8--6--8--8b10--6--8--8-----
D|----------------------------------6--8-----------------------------------------0--
A|----------------------------------------------------------------------------------
E|----------------------------------------------------------------------------------



E|--14b16------------------------------------------------
B|---------6--8--6--8--9--8--9--11--9--11--11b13--11b13--
G|-------------------------------------------------------
D|-------------------------------------------------------
A|-------------------------------------------------------
E|-------------------------------------------------------



E|-----------------------------------------------------
B|-----------------------------------------------------
G|----------12------12------12--11--10--9--9--8--7--6--
D|--11--11------11------11-----------------------------
A|-----------------------------------------------------
E|-----------------------------------------------------



E|-----------------------------------------------
B|-----------------------------------------------
G|-----------------------------------------------
D|-----------------------------------------------
A|--8--8--5--8--8--5--5--8--8--5--5--8--8--5--5--
E|--6--6--3--6--6--3--3--6--6--3--3--6--6--3--3--



E|--------------------------------------------------
B|--------------------------------------------------
G|--------------------------------------------------
D|--5--5--5--8--5--5--5--8--5--5--5--8--5--5--5--8--
A|--3--3--3--6--3--3--3--6--3--3--3--6--3--3--3--6--
E|--------------------------------------------------



E|--------------
B|--------------
G|--------------
D|--------------
A|-----6--7--8--
E|--0--4--5--6--
http://www.guitartabcreator.com
Guitar Tab Creator is intended to store guitar tab created through the tool. It currently does not support in-line text editing. Any text you place in here will be lost. If you need to comment on your tab, please use the "Tab Notes" section located below.