Duh Duh Dun

(/) Slide Up  (\) Slide Down  (h) Hammer On  (p) Pull Off  (b) Bend (r) Release (v) Vibrato

E|-----------0-----------0-----------0-----------------5--
B|-----------1-----------1-----------1-----------------6--
G|-----------2-----------2-----------0--7--5-----------7--
D|-----------2-----------2-----------2--------7--5-----7--
A|--------0--0--------0--0-----0--3--3--------------5--5--
E|--0--3-----0--0--3--------3-----------------------------



E|-----------0-----------0-----------0-----------------5--
B|-----------1-----------1-----------1-----------------6--
G|-----------2-----------2-----------0--7--5-----------7--
D|-----------2-----------2-----------2--------7--5-----7--
A|--------0--0--------0--0-----0--3--3--------------5--5--
E|--0--3--------0--3--------3-----------------------------



E|-----------0-----------0-----------1-----------3--
B|-----------1-----------1-----------1-----------3--
G|-----------2-----------2-----------2-----------4--
D|-----------2-----------2-----------3-----------5--
A|--------0--0--------0--0--0--------3-----------5--
E|--0--3--------0--3-----------3--0--0--0--1--3--3--
http://www.guitartabcreator.com
Guitar Tab Creator is intended to store guitar tab created through the tool. It currently does not support in-line text editing. Any text you place in here will be lost. If you need to comment on your tab, please use the "Tab Notes" section located below.