Stranglehold

(/) Slide Up  (\) Slide Down  (h) Hammer On  (p) Pull Off  (b) Bend (r) Release (v) Vibrato


E|----------------------------------------------------------
B|----------------------------------------------------------
G|-----------------------5--7-------------------------------
D|--5--7----7----7--7----5--7----5--7----7----7--7----------
A|--0--0----0----0--0------------0--0----0----0--0----5--7--
E|----------------------------------------------------3--5--



E|----------------------------------------------------------
B|----------------------------------------------------------
G|----------------------------------------------------------
D|----------------------------------------------------------
A|--4------7--7--4--------------4--------7--7--4------------
E|--2------5--5--2------0--2----2--------5--5--2------0--2--
http://www.guitartabcreator.com
Guitar Tab Creator is intended to store guitar tab created through the tool. It currently does not support in-line text editing. Any text you place in here will be lost. If you need to comment on your tab, please use the "Tab Notes" section located below.