Rainbow in the Dark

(/) Slide Up  (\) Slide Down  (h) Hammer On  (p) Pull Off  (b) Bend (r) Release (v) Vibrato


E|----------------------------------------------------
B|----------------------------------------------------
G|----------------------------------------------------
D|----------------------------------------------------
A|--7--3-----3--5------3--2--0---------7--3-----3--7--
E|--5--1--0--1--3---------------3------5--1--0--1--5--



E|-------------------------
B|-------------------------
G|-------------------------
D|-------------------------
A|--2----3----2----3----5--
E|--0----1----0----1----3--
http://www.guitartabcreator.com
Guitar Tab Creator is intended to store guitar tab created through the tool. It currently does not support in-line text editing. Any text you place in here will be lost. If you need to comment on your tab, please use the "Tab Notes" section located below.