Metallica Enter Sandman

(/) Slide Up  (\) Slide Down  (h) Hammer On  (p) Pull Off  (b) Bend (r) Release (v) Vibrato


E|----------------------
B|----------------------
G|----------0-----------
D|-------2-----------2--
A|-------------1--0-----
E|--0-------------------



E|----------------------
B|----------------------
G|----------------------
D|--2----2--------------
A|--2----2----/7--------
E|--0----0--------6--5--



E|-------------------------
B|-------------------------
G|-------------------------
D|--5----------------------
A|--5----------------------
E|--3----0--3--0--2--3--2--



E|--
B|--
G|--
D|--
A|--
E|--
http://www.guitartabcreator.com
Guitar Tab Creator is intended to store guitar tab created through the tool. It currently does not support in-line text editing. Any text you place in here will be lost. If you need to comment on your tab, please use the "Tab Notes" section located below.