Hells Bells

(/) Slide Up  (\) Slide Down  (h) Hammer On  (p) Pull Off  (b) Bend (r) Release (v) Vibrato
E|----------------------------------------------------------------------------
B|----------------------------------------------------------------------------
G|-----9-----7--------5--------7-----------9-----7--------5--------7----------
D|--------------7--------5--------7-----------------7--------5----------5--5--
A|--0-----0--------0--------0--------0--0-----0--------0--------0-------3--2--
E|----------------------------------------------------------------------------



E|-----------------------------------------------------------------------------
B|-----------------------------------------------------------------------------
G|-----9-----7--------5--------7-----------9-----7-----------------------------
D|--------------7--------5--------7-----------------7---------------7----5--5--
A|--0-----0--------0--------0--------0--0-----0--------0----5--5----5----3--2--
E|----------------------------------------------------------3--3---------------



E|----------------------------------------------------------------------------
B|----------------------------------------------------------------------------
G|-------9--7--9----7--5--7--------------------9--7--9----7--5--7-------------
D|-------7--7--7----7--5--7-------5--5---------7--7--7----7--5--7-------5--5--
A|--0--------------------------0--3--2----0--------------------------0--3--2--
E|----------------------------------------------------------------------------



E|------------------------------------------------------------------------
B|------------------------------------------------------------------------
G|-----2--0--2----2--0--2------------------2--0--2----2--0--2-------------
D|-----2--0--2----0--0--0-------5--5-------2--0--2----0--0--0-------5--5--
A|--0------------------------0--3--2----0------------------------0--3--2--
E|------------------------------------------------------------------------



E|----------------------------------------------------------------------------------
B|--3--3--3----3--3--3----3--3--3------------3--3--3----3--3--3----3--3--3----------
G|--2--2--0----2--2--0----2--2--2------------2--2--0----2--2--0----2--2--2----------
D|--0--0--0----0--0--0----0--0--0----5-------0--0--0----0--0--0----0--0--0----5-----
A|-----------------------------------3--5-------------------------------------3--5--
E|--------------------------------------3----------------------------------------3--



E|------------------------------------------------------------------------------------------
B|------------------------------------------------------------------------------------------
G|------------------------------------------------------------------------------------------
D|-------9--7--9----9--7--9----9--9-------7----------9--7--9----9--7--9----9--9-------------
A|-------7--7--7----7--7--7----7--7-------5--7-------7--7--7----7--7--7----7--7-------5--5--
E|--0----------------------------------0-----5----0--------------------------------0--3--3--
http://www.guitartabcreator.com
Guitar Tab Creator is intended to store guitar tab created through the tool. It currently does not support in-line text editing. Any text you place in here will be lost. If you need to comment on your tab, please use the "Tab Notes" section located below.