Egypt - The Chains Are On

(/) Slide Up  (\) Slide Down  (h) Hammer On  (p) Pull Off  (b) Bend (r) Release (v) Vibrato
E|--------------------------------------------------------------------------------------------
B|--------------------------------------------------------------------------------------------
G|--------------------------------------------------------------------------------------------
D|--7-----7-----7-----7-----7-----7-----7\3------7-----7-----7-----7-----7-----7-----7--5--3--
A|--5--5--5--5--5--5--5--5--5--5--5--5--5-1------5--5--5--5--5--5--5--5--5--5--5--5--5--3--1--
E|--------------------------------------------------------------------------------------------



E|-------------------------------------------------------------------------------------------
B|----------------------------------------------------------------------------------------3--
G|-----1--2-----2--3-----1--2-----2-----2--3-------1--2-----2--3-----1--2-----2-----2--3-----
D|--0--------0--------0--------0-----0----------0--------0--------0--------0-----0-----------
A|-------------------------------------------------------------------------------------------
E|-------------------------------------------------------------------------------------------



E|--------------------------------------------------------------------------------------------------
B|--------------------------------------------------------------------------------------------------
G|--------------------------------------------------------------------------------------------------
D|--7-----7-----7-----7-----7-----7-----7-----7-----7-----7-----7-----7-----7-----7-----7-----7-----
A|--5--5--5--5--5--5--5--5--5--5--5--5--5--5--5--5--5--5--5--5--5--5--5--5--5--5--5--5--5--5--5--5--
E|--------------------------------------------------------------------------------------------------



E|------------------------------------------------------------------------------------------------------
B|------------------------------------------------------------------------------------------------------
G|------------------------------------------------------------------------------------------------------
D|--7-----7-----7-----7--5--------------------------3----------------------2----------------------------
A|--5--5--5--5--5--5--5--3--------------------------1----------------------0----------------------------
E|------------------------------------------------------------------------------------------------------



E|------------------------------------------------------------------------------------------------------
B|------------------------------------------------------------------------------------------------------
G|------------------------------------------------------------------------------------------------------
D|--7----------------------3------------------------7----------------------3----------------------7--7--
A|--5----------------------1------------------------5----------------------1----------------------5--5--
E|------------------------------------------------------------------------------------------------------



E|----------------------------------------------------------
B|----------------------------------------------------------
G|-----1--2-----2--3-------------------1--2-----2-----2--3--
D|--0--------0----------------------0--------0-----0--------
A|----------------------------------------------------------
E|----------------------------------------------------------



E|---------------------------------------------------------------------------------------------------
B|---------------------------------------------------------------------------------------------------
G|---------------------------------------------------------------------------------------------------
D|--7----------------------5------------------------7----------------------5-------------------------
A|--5----------------------3------------------------5----------------------3-------------------------
E|---------------------------------------------------------------------------------------------------



E|----------------------------------------------------------------------------------------------------
B|----------------------------------------------------------------------------------------------------
G|----------------------------------------------------------------------------------------------------
D|--7----------------------5------------------------3----------------------2--------------------------
A|--5----------------------3------------------------1----------------------0--------------------------
E|----------------------------------------------------------------------------------------------------



E|--------
B|--------
G|--------
D|--------
A|--------
E|--------
http://www.guitartabcreator.com
Guitar Tab Creator is intended to store guitar tab created through the tool. It currently does not support in-line text editing. Any text you place in here will be lost. If you need to comment on your tab, please use the "Tab Notes" section located below.