Two's Up solo

(/) Slide Up  (\) Slide Down  (h) Hammer On  (p) Pull Off  (b) Bend (r) Release (v) Vibrato
E|---------------------------------------------------------------------
B|---------------------------------------------------------------------
G|--10------8-----10--------8-----10-----------------------------------
D|------10-----8------10-------8------10----8--10----10v----8------8v--
A|-------------------------------------------------------------10------
E|---------------------------------------------------------------------



E|-----------------------------------------------------------------
B|----------------------------------------11b13--11v---------------
G|--10------8-----10--------8-----10--------------------10p8-------
D|------10-----8------10-------8------10----------------------10v--
A|-----------------------------------------------------------------
E|-----------------------------------------------------------------



E|---------------------------------------------------11b13--11--8---------------------------------
B|-----------------------------------------------------------------11--8--------------------------
G|------------------------------------------------------------------------11--10--8--10-----------
D|--5--------3--------5----------3--------5----------------------------------------------10--10v--
A|-----5--------3--------5----------3--------5----------------------------------------------------
E|--------3--------1--------3----------1--------3-------------------------------------------------



E|----------------------------------------------------------------------------------------------
B|---------------------------------------------------16---------------18b20--16-----------------
G|-------------------------------------------------------17--17v--15-------------17v----14--17--
D|--5--------3--------5----------3--------5-----------------------------------------------------
A|-----5--------3--------5----------3--------5--------------------------------------------------
E|--------3--------1--------3----------1--------3-----------------------------------------------
http://www.guitartabcreator.com
Guitar Tab Creator is intended to store guitar tab created through the tool. It currently does not support in-line text editing. Any text you place in here will be lost. If you need to comment on your tab, please use the "Tab Notes" section located below.