Sonic Underground Credits

(/) Slide Up  (\) Slide Down  (h) Hammer On  (p) Pull Off  (b) Bend (r) Release (v) Vibrato
E|-----------------------------
B|-----4-----------------------
G|--------6--4-----3-----------
D|--6-----------6-----6--4-----
A|-----------------------------
E|-----------------------------



E|---------------------------
B|-------4-------------------
G|----------6--4-----3-------
D|--4/6-----------6-----6p4--
A|---------------------------
E|---------------------------



E|------------------------------------------------------------------------------
B|---------16--19--16---------16--19--16---------16--19--16---------16--19--16--
G|--18b20--------------18b20--------------18b20--------------18b20--------------
D|------------------------------------------------------------------------------
A|------------------------------------------------------------------------------
E|------------------------------------------------------------------------------



E|------------------------------------------------------------------
B|---------16--19--16---------16--19--16---------16--16--16--19b21--
G|--18b20--------------18b20--------------18b20---------------------
D|------------------------------------------------------------------
A|------------------------------------------------------------------
E|------------------------------------------------------------------



E|---------------------------
B|-------4-------------------
G|----------6--4-----3-------
D|--4/6-----------6-----6p4--
A|---------------------------
E|---------------------------



E|----------------------------------------14------14------14------14------14------14-------
B|---------19--14--16--14---------19--14------12------14------12------14------12-----------
G|--18b20------------------18b20------------------------------------------------------13v--
D|-----------------------------------------------------------------------------------------
A|-----------------------------------------------------------------------------------------
E|-----------------------------------------------------------------------------------------



E|-------------------------------------------------
B|-------------------------------------------------
G|-------7h9b11v--9p7p6h7--6--7p6h7p6h7p6h7p6------
D|--7h9----------------------------------------9v--
A|-------------------------------------------------
E|-------------------------------------------------



E|-------7-----------------------
B|--0h7-----10v--10p7h9p7--5h7p5p
G|-------------------------------
D|-------------------------------
A|-------------------------------
E|-------------------------------



E|--------
B|--3h5v--
G|--------
D|--------
A|--------
E|--------



E|-----------------------------------------------------------------------
B|--10p7h9p7p5--10p7h9p7p5--10p7h9p7p5--10p7h9p7p5--3--5p3h5p3-----------
G|--------------------------------------------------------------4p2h4p2--
D|-----------------------------------------------------------------------
A|-----------------------------------------------------------------------
E|-----------------------------------------------------------------------
http://www.guitartabcreator.com
Guitar Tab Creator is intended to store guitar tab created through the tool. It currently does not support in-line text editing. Any text you place in here will be lost. If you need to comment on your tab, please use the "Tab Notes" section located below.