Heatseeker solo pt5

(/) Slide Up  (\) Slide Down  (h) Hammer On  (p) Pull Off  (b) Bend (r) Release (v) Vibrato


E|------------------------------------------------------------------------------------------------
B|---------20---------20---------20---------20---------20---------20---------20---------20--------
G|--19b21------19b21------19b21------19b21------19b21------19b21------19b21------19b21------19b---
D|------------------------------------------------------------------------------------------------
A|------------------------------------------------------------------------------------------------
E|------------------------------------------------------------------------------------------------



E|------------------------
B|---------20---------20--
G|--19b21------19b21------
D|------------------------
A|------------------------
E|------------------------
http://www.guitartabcreator.com
Guitar Tab Creator is intended to store guitar tab created through the tool. It currently does not support in-line text editing. Any text you place in here will be lost. If you need to comment on your tab, please use the "Tab Notes" section located below.