Fire Your Guns (Live at Donington 2003 DVD Version) Solo

(/) Slide Up  (\) Slide Down  (h) Hammer On  (p) Pull Off  (b) Bend (r) Release (v) Vibrato

E|-------------------------------------------------------------------5----------------------
B|----------------------------------------------------------------5-----8--5----------------
G|-------------------------5b6-------------------7b9r7--5--7b9----------------7b9r7--5------
D|-----7-------7--7v----7------------7--7v----------------------------------------------7v--
A|--0-------0---------------------0-----------0---------------------------------------------
E|------------------------------------------------------------------------------------------



E|--------------------------------------------------------------------------------------
B|--------------------------------------------------------------------------------------
G|-----5-------5--------5--------5----------5b6---------------------4b5r4----2----5h5v--
D|--5-----5h7-----5--7-----5--7-----5--7-----------7--7v--------------------------------
A|----------------------------------------------------------0--0------------------------
E|--------------------------------------------------------------------------------------
http://www.guitartabcreator.com
Guitar Tab Creator is intended to store guitar tab created through the tool. It currently does not support in-line text editing. Any text you place in here will be lost. If you need to comment on your tab, please use the "Tab Notes" section located below.