Pessimist Reality

(/) Slide Up  (\) Slide Down  (h) Hammer On  (p) Pull Off  (b) Bend (r) Release (v) Vibrato
E|--------------------------------------------------------------------------------------------------
B|--------------------------------------------------------------------------------------------------
G|--4--4--5--4--5--4--5--4--5--4--5--4--5--4--8--7--5--4--5--4--5--4--5--4--5--4--5--4--5--2--5--4--
D|--------------------------------------------------------------------------------------------------
A|--------------------------------------------------------------------------------------------------
E|--------------------------------------------------------------------------------------------------



E|--------------------------------------------------------------------
B|-----5--5--3--5--6--5--3--1-----5--5--5--8--6--5--6--5--3--1--0-----
G|--2--------------------------2--------------------------------------
D|--------------------------------------------------------------------
A|--------------------------------------------------------------------
E|--------------------------------------------------------------------



E|-------------------------------------------------------------------------
B|-----5--5--3--5--6--5--3--1-----5--5--5--6--8--6--5--3--5--3--5b6--5-----
G|--2--------------------------2-------------------------------------------
D|-------------------------------------------------------------------------
A|-------------------------------------------------------------------------
E|-------------------------------------------------------------------------



E|----------------------------------------------------------------------------------------------
B|--------------------5v--5--6--5--------------------8--6--5--3--------------------5v--5--3--1--
G|--2--5--4--5--4--2---------------2--5--4--5--4--2--------------2--5--4--5--4--2---------------
D|----------------------------------------------------------------------------------------------
A|----------------------------------------------------------------------------------------------
E|----------------------------------------------------------------------------------------------



E|--------------------------------
B|--5--3--1--0--1--0--3--1--0-----
G|-----------------------------2--
D|--------------------------------
A|--------------------------------
E|--------------------------------



E|-----------------------------------------------------------------------------------------------
B|-----------------------------------------------------------------------------------------------
G|--4--4--5--4--5--4--5--4--5--4--5--4--5--8--7--5--4--5--4--5--4--5--4--5--4--5--4--5--2--5--4--
D|-----------------------------------------------------------------------------------------------
A|-----------------------------------------------------------------------------------------------
E|-----------------------------------------------------------------------------------------------



E|--------------------------------------------------------------------------------------------
B|-----5--5--3--5--6--5--3--1-----5--5--5--6--8--6--5--3-----5--5--3--5--6--5--3--1-----5--5--
G|--2--------------------------2--------------------------2--------------------------2--------
D|--------------------------------------------------------------------------------------------
A|--------------------------------------------------------------------------------------------
E|--------------------------------------------------------------------------------------------



E|----------------------------------
B|--5--6--8--6--5--3--5--3--5b6--5--
G|----------------------------------
D|----------------------------------
A|----------------------------------
E|----------------------------------



E|----------------------------------------------------------------------------------------------
B|--------------------5v--5--6--5--------------------8--6--5--3--------------------5v--5--3--1--
G|--2--5--4--5--4--2---------------2--5--4--5--4--2--------------2--5--4--5--4--2---------------
D|----------------------------------------------------------------------------------------------
A|----------------------------------------------------------------------------------------------
E|----------------------------------------------------------------------------------------------



E|--------------------------------
B|--5--3--1--0--1--0--3--1--0-----
G|-----------------------------2--
D|--------------------------------
A|--------------------------------
E|--------------------------------



E|--------------------------------------------------------------------------
B|-----10--8--10------------------------10--8--10---------------------------
G|----------------9--7--9--7-----------------------9--7--9--9v--9--9p7------
D|--7-------------------------10--7--7----------------------------------10--
A|--------------------------------------------------------------------------
E|--------------------------------------------------------------------------



E|------8--7--8p7--------------------------------------------------
B|-----------------10--10--8--8--10--10--5v--5--3--1--5--3-----5b6r
G|----------------------------------------------------------5------
D|--10-------------------------------------------------------------
A|-----------------------------------------------------------------
E|-----------------------------------------------------------------



E|---------------------------------------------------------------
B|--------------------5v--5--6--5--------------------8--6--5--3--
G|--2--5--4--5--4--2---------------2--5--4--5--4--2--------------
D|---------------------------------------------------------------
A|---------------------------------------------------------------
E|---------------------------------------------------------------



E|---------------8-----------------------------------------------------
B|-----8--10--8-----12--10--12--10--8v--8--1--0--1--0--3--1--0---------
G|--------------------------------------------------------------2h4p2--
D|--7------------------------------------------------------------------
A|---------------------------------------------------------------------
E|---------------------------------------------------------------------
http://www.guitartabcreator.com
Guitar Tab Creator is intended to store guitar tab created through the tool. It currently does not support in-line text editing. Any text you place in here will be lost. If you need to comment on your tab, please use the "Tab Notes" section located below.