My heart will go on

(/) Slide Up  (\) Slide Down  (h) Hammer On  (p) Pull Off  (b) Bend (r) Release (v) Vibrato


E|-------------------------------------------
B|--------------------12--10--9--7--5--------
G|--9--11--13--11--9-------------------6--4--
D|-------------------------------------------
A|-------------------------------------------
E|-------------------------------------------



E|--------------------------------------------
B|--------------------12--10--12--14--16--12--
G|--9--11--13--11--9--------------------------
D|--------------------------------------------
A|--------------------------------------------
E|--------------------------------------------



E|----------------------------------------
B|---------------------------------9------
G|--9--9--9--9--8--9--9--8--9--11-----11--
D|----------------------------------------
A|----------------------------------------
E|----------------------------------------



E|--------------------------
B|--------------------------
G|--9--9--9--9--8--9--8-----
D|-----------------------7--
A|--------------------------
E|--------------------------



E|-----------------------------------------------------
B|--5--7-----12--10--9--7--9--10--9--7--5--4--5--4--0--
G|-----------------------------------------------------
D|--------9--------------------------------------------
A|-----------------------------------------------------
E|-----------------------------------------------------



E|-----------------------
B|--5--4--5--7--9--7--5--
G|-----------------------
D|-----------------------
A|-----------------------
E|-----------------------
http://www.guitartabcreator.com
Guitar Tab Creator is intended to store guitar tab created through the tool. It currently does not support in-line text editing. Any text you place in here will be lost. If you need to comment on your tab, please use the "Tab Notes" section located below.