Rammstein- Sonne

(/) Slide Up  (\) Slide Down  (h) Hammer On  (p) Pull Off  (b) Bend (r) Release (v) Vibrato


E|---------------------------------------------
B|---------------------------------------------
G|---------------------------------------------
D|-0-0-6-0-6-5-0--0-0-6-0-6-0--0-0-6-0-6-5-5-5-
A|-0-0-6-0-6-5-0--0-0-6-0-6-0--0-0-6-0-6-5-5-5-
E|-0-0-6-0-6-5-0--0-0-6-0-6-0--0-0-6-0-6-5-5-5-



E|--------------------------------------
B|--------------------------------------
G|--------------------------------------
D|-9-9-2-2-0-0-10-10--9-9-2-2-0-0-10-10-
A|-9-9-2-2-0-0-10-10--9-9-2-2-0-0-10-10-
E|-9-9-2-2-0-0-10-10--9-9-2-2-0-0-10-10-



E|----------------------------------
B|----------------------------------
G|----------------------------------
D|-9-9-5-5-4-4-2-2--9-9-5-5-4-4-2-2-
A|-9-9-5-5-4-4-2-2--9-9-5-5-4-4-2-2-
E|-9-9-5-5-4-4-2-2--9-9-5-5-4-4-2-2-
http://www.guitartabcreator.com
Guitar Tab Creator is intended to store guitar tab created through the tool. It currently does not support in-line text editing. Any text you place in here will be lost. If you need to comment on your tab, please use the "Tab Notes" section located below.