My song

(/) Slide Up  (\) Slide Down  (h) Hammer On  (p) Pull Off  (b) Bend (r) Release (v) Vibrato

E|--5--------6--------6-----5h6p5h6p5-----------6p5--------6--------5--------------------------
B|-----6--------6--------6-------------------6-------6--------6--------6-----------------3-----
G|--------5--------5----------------------5-------------5--------5--------5-----------3--------
D|-------------------------------------0-------------------------------------0-----3-----------
A|------------------------------------------------------------------------------1--------------
E|---------------------------------------------------------------------------------------------



E|--------------------------------------------------5--------5--------5-----5--------5--------
B|--------------------5--------------------6-----------6--------6--------6-----6--------6-----
G|--3--------------5-----5--------------7-----7-----------7--------7--------------5-----------
D|-----3--------5-----------5--------7-----------7--------------------------------------------
A|--------1--3-----------------3--5-----------------------------------------------------------
E|--------------------------------------------------------------------------------------------



E|-----5-----5--------5--------5-----5--------5--------5-----5--------6--------6-----5--6-----
B|--------6-----6--------6--------6-----6--------6--------6-----6--------6--------6-----------
G|--5--------------7--------7--------------5--------5--------------5--------5-----------------
D|--------------------------------------------------------------------------------------------
A|--------------------------------------------------------------------------------------------
E|--------------------------------------------------------------------------------------------



E|--5--3--------3--------3-----1--------1--------1-----3--------3--------3-----1--------1--------
B|--------3--------3--------3-----3--------3--------3-----3--------3--------3-----3--------3-----
G|-----------2--------2--------------2--------2--------------2--------2--------------2--------2--
D|-----------------------------------------------------------------------------------------------
A|-----------------------------------------------------------------------------------------------
E|-----------------------------------------------------------------------------------------------



E|--1-----------------------------------------------------------------------------------------
B|-----3-----------1-----------------------------------------1--------------------------------
G|--------------2-----2-----------------2-----------------2-----2-----------------2-----------
D|-----------2-----------2-----------3-----3-----------2-----------2-----------3-----3--------
A|--------0-----------------0-----3-----------3-----0-----------------0-----3-----------3-----
E|-----------------------------1-----------------1-----------------------1-----------------1--



E|--
B|--
G|--
D|--
A|--
E|--
http://www.guitartabcreator.com
Guitar Tab Creator is intended to store guitar tab created through the tool. It currently does not support in-line text editing. Any text you place in here will be lost. If you need to comment on your tab, please use the "Tab Notes" section located below.