crazy train-by ozzy ozborne

(/) Slide Up  (\) Slide Down  (h) Hammer On  (p) Pull Off  (b) Bend (r) Release (v) Vibrato
E|--------------------------------------------------
B|--------------------------------------------------
G|--------------------------------------------------
D|--------------------------------------------------
A|--------4-----5-----4-----2-----------2-----------
E|--2--2-----2-----2-----2-----5--4--5-----5--4--0--



E|--------------------------------------------------
B|--------------------------------------------------
G|--------------------------------------------------
D|--------------------------------------------------
A|--------4-----5-----4-----2-----------2-----------
E|--2--2-----2-----2-----2-----5--4--5-----5--4--0--



E|--------------------------------------------------
B|--------------------------------------------------
G|--------------------------------------------------
D|--------------------------------------------------
A|--------4-----5-----4-----2-----------2-----------
E|--2--2-----2-----2-----2-----5--4--5-----5--4--0--



E|--------------------------
B|--------------------------
G|--------------------------
D|--------------------------
A|--------4-----5-----4-----
E|--2--2-----2-----2-----2--



E|--------
B|--------
G|--------
D|--7--9--
A|--5--7--
E|--5--7--



E|-----------------------------------
B|--------------5--------------5-----
G|--------------6--------------4-----
D|--------------7--------------6-----
A|--0--0--0--0-----0--0--0--0--------
E|-----------------------------------



E|-------------------------------------------
B|--------------3--------------2-------------
G|--------------2--------------2-------------
D|--------------4--------------2-------------
A|--0--0--0--0-----0--0--0--0-----0-------0--
E|-----------------------------------3b3-----



E|--------------------------------
B|--------------5--------------5--
G|--------------6--------------4--
D|--------------7--------------6--
A|--0--0--0--0-----0--0--0--0-----
E|--------------------------------



E|-----------------------------------------------------
B|--------------3--------------2-----------------------
G|--------------2--------------2--4p2p0----------------
D|--------------4--------------2---------4p2p0---------
A|--0--0--0--0-----0--0--0--0-------------------4p2p0--
E|-----------------------------------------------------
http://www.guitartabcreator.com
Guitar Tab Creator is intended to store guitar tab created through the tool. It currently does not support in-line text editing. Any text you place in here will be lost. If you need to comment on your tab, please use the "Tab Notes" section located below.