Blue Monk

(/) Slide Up  (\) Slide Down  (h) Hammer On  (p) Pull Off  (b) Bend (r) Release (v) Vibrato


E|--------------|--------------|--------------|--
B|--------------|--------------|--------------|--
G|--------------|--------------|--------------|--
D|--------------|--------------|--------------|--
A|-----3--4--5--|--6--5--------|-----5--8-----|--
E|--6-----------|--------8--5--|--6--------5--|--



E|--------------|--------------|--------------|--
B|--------------|--------------|--------------|--
G|--------------|--------------|--------------|--
D|--------------|--------------|--------------|--
A|-----3--4--5--|--6-----------|--6--5--------|--
E|--6-----------|-----3--5--6--|--------8--5--|--



E|--------------|--------------|--------------|--
B|--------------|--------------|--------------|--
G|--------------|--------------|--------------|--
D|--------------|--------------|--------------|--
A|-----5--8-----|--------------|-----0--3--0--|--
E|--6--------5--|--6--5--3--0--|--1-----------|--



E|--------------|--------------|--------------|--
B|--------------|--------------|--------------|--
G|--------------|--------------|--------------|--
D|--------------|--------------|--------------|--
A|--------------|-----5--8-----|-----5--8-----|--
E|--1--3--4--5--|--6--------5--|--6--------5--|--
http://www.guitartabcreator.com
Guitar Tab Creator is intended to store guitar tab created through the tool. It currently does not support in-line text editing. Any text you place in here will be lost. If you need to comment on your tab, please use the "Tab Notes" section located below.