Man Of The World ( Utsusemi ) - Naruto Shippuuden

    Man Of The World ~ Utsusemi ( NARUTO )
E|--1---3---0----|-------0---1-----|---6---5---3----|---3---1---0-----|----1-----3-----0------------|
B|---------------|---3-------------|-----------1----|---------------1-|-----------------------------|
G|--2------------|-----------------|---0------------|---0-----------0-|-------2-----2--5------0-----|
D|--0------------|---3-------------|---0------------|-----------2-----|----0--------------2---------|
A|---------------|---1-------1-----|----------------|---3-------0-----|------------------------3----|
E|---------------|-----------------|----------------|-----------------|-----------------------------|

|--------0-----1----------|--6-----5-----3--------|-----------------------|
|--3-----------------3----|-----------------3--5--|--8-----6-----5--------|
|--------------------3----|-----------0-----------|-----0-----0--------5--|
|-----3-----3-----3-----3-|-----0--------------5--|-----------------5-----|
|--1----------------------|--------------3--------|-----------------------|
|-------------------------|--3--------------------|--8--------------------|

|--------0--1--------0----|-----------------------|--1-----0-----5-----------------------8-----------|
|-----------3-----------3-|-------1--3-----6--5~1-|-----------3--------6--5--5--------5--------6--5--|
|-----2-----------2-------|----2--------3-----5-0-|-----2-----2-----------------0--5--------5--------|
|--0-----------0----------|-0---------------------|--0--------------7--------------------------------|
|-------------------------|-------------6---------|--------------5-----------0-----------------------|
|-------------------------|----------6------------|--------------------------------------5-----------|

|--6-----------5-----------8----------------------|--1-----0-----5-----------------------8-----------|
|--------8-----------6--5-----------5--6--5-------|-----------3-------6--5--5----5-------------6--5--|
|-----7-----7-----7--------------5-----------5----|-----2----------------------0----5-------0--------|
|--5-----------0--------------7-----------------7-|--0--------------7--------------------------------|
|--------------------------0----------------------|--------------5----------0------------0-----------|
|-------------------------------------------------|--------------------------------------------------|

|--6-----------5-----------8--------10---12-----------|-----------0---------5--3--3----1---0---1-----|
|--------8-----------6--5----------------0---13-------|--3---------3--1------------------------------|
|-----7-----7-----7--------------0-------0------12--9-|--3-----3---------------------2---2---2-------|
|--0-----------0-----------------5--------------------|-----3------------2--------0------------------|
|-----------------------------7-----------------------|--1------------3------------------------------|
|--------------------------8-------------12-----------|----------------------------------------------|

|--1-----3----5---------------------------------------|--------0----------4/5--3--6------------------|
|--------1----------5-----1--3--3-----1-----0--1--3---|--3-----------1------------6-----10-----6---5-|
|----------------0--5--0--0--------0-----0------------|--3----------------4/5------------------------|
|-----3-------------------2-----0---------------------|--3--3-----3----2-------3-----8------8-----8--|
|--1----------3-----------3---------------------------|--1-----------3------------6------------------|
|-----------------------------------------------------|----------------------------------------------|

|-1-----3----5------------------|--------1--3--------1--0-----------0-----1--0-------1-----0--------||
|------------------5------1--3--|--3-----3-----------------------1-----3--------1------------1--3---||
|------------5-----5--5---0-----|-----2-----------2-----------2-------------------------2-------2---||
|----3----------5---------2-----|--0-----------0-----------0-------------------------0----------0---||
|-1----------3------------3-----|--------------------------------------1-----3----------------------||
|-------------------------------|-------------------------------------------------------------------||
Guitar Tab Creator is intended to store guitar tab created through the tool. It currently does not support in-line text editing. Any text you place in here will be lost. If you need to comment on your tab, please use the "Tab Notes" section located below.