Milne Hai Mujhse Aai Guitar Solo Tabs

(/) Slide Up  (\) Slide Down  (h) Hammer On  (p) Pull Off  (b) Bend (r) Release (v) Vibrato


E|--------------------------|--------------------------|--
B|--------------------------|--------------------------|--
G|--------------------------|--------------------------|--
D|--------------------------|--------------------------|--
A|-----4--5--7-----4--5--7--|-----4--5--7-----4--5--7--|--
E|--7-----------7-----------|--7-----------7-----------|--



E|--------------------------------------------------
B|--------------------------------------------------
G|--7--7--7--7--6--6--6--6--5--5--5--5--4--4--4--4--
D|--7--7--7--7--6--6--6--6--5--5--5--5--4--4--4--4--
A|--------------------------------------------------
E|--------------------------------------------------



E|---------------------------------------------------------------------
B|-------------5b7-----------------------------------------------------
G|--7b7--4--7-------7--6--7-----4----------------------------5/7/9/10--
D|---------------------------7-----4--7-----------------5/7------------
A|---------------------------------------7--5-----8--3-----------------
E|---------------------------------------------8-----------------------



E|-------------------------
B|-------------------------
G|-----6--7/9/11--12/14\7--
D|--7----------------------
A|-------------------------
E|-------------------------
http://www.guitartabcreator.com
Guitar Tab Creator is intended to store guitar tab created through the tool. It currently does not support in-line text editing. Any text you place in here will be lost. If you need to comment on your tab, please use the "Tab Notes" section located below.