Chahu Mai Ya Na (intro)- Aashiqui 2

(/) Slide Up  (\) Slide Down  (h) Hammer On  (p) Pull Off  (b) Bend (r) Release (v) Vibrato

E|-----------0-----------------------------------------------------
B|-----------------3--1--0-----------------------------------------
G|--------2-----------------2--0--2-----------0--2--4--5--7--4--0--
D|-----2--------2--------------------------3--------5--5--5--------
A|--0-----------------------------------3--------------------------
E|-----------------------------------1-----------------------------



E|--------2--2-----3-----
B|--1--1-----3--1-----1--
G|--2--------2--2-----2--
D|--2--2--------3-----2--
A|-----3--2-----3--2-----
E|--------3--------3-----
http://www.guitartabcreator.com
Guitar Tab Creator is intended to store guitar tab created through the tool. It currently does not support in-line text editing. Any text you place in here will be lost. If you need to comment on your tab, please use the "Tab Notes" section located below.