Aashiqui 2

(/) Slide Up  (\) Slide Down  (h) Hammer On  (p) Pull Off  (b) Bend (r) Release (v) Vibrato

E|------------------------------------------------------------------------------------------
B|----------------------------------8--------------------8--8--8--8h9--9--9\8--8--8\6--6\4--
G|--8------8-----------------8------------------------8-------------------------------------
D|-----10-----10--8--10--10-----10-----10--8--10--10----------------------------------------
A|------------------------------------------------------------------------------------------
E|------------------------------------------------------------------------------------------



E|-----------------------------------------------------------
B|--4--4\3-----------3--4-----3--4/11-----3--4/15/13/11/8b8--
G|----------5--3--5--------5-----------5---------------------
D|-----------------------------------------------------------
A|-----------------------------------------------------------
E|-----------------------------------------------------------
http://www.guitartabcreator.com
Guitar Tab Creator is intended to store guitar tab created through the tool. It currently does not support in-line text editing. Any text you place in here will be lost. If you need to comment on your tab, please use the "Tab Notes" section located below.