Lost Without You- Robin Thicke

(/) Slide Up  (\) Slide Down  (h) Hammer On  (p) Pull Off  (b) Bend (r) Release (v) Vibrato


E|------------------------------------------------------------------------------------
B|--66-66--66-66--66-66--66-66--55-55--55-55--55-55--3-4-5--66-66--66-66--66-66--66-66
G|--55-55--55-55--44-44--44-44--44-44--44-44--55-55--3-4-5--55-55--55-55--44-44--44-44
D|--33-33--33-33--33-33--33-33--55-55--55-55--33-33---------33-33--33-33--33-33--33-33
A|--55-55--55-55--55-55--55-55--33-33--33-33---------3-4-5--55-55--55-55--55-55--55-55
E|------------------------------------------------------------------------------------


E|------------------0-------3-------
B|--55-55--55-55--5--5------3-------------
G|--44-44--44-44--5---5----5-------
D|--33-33--33-33--3-------3--------
A|--55-55--55-55-------0-5----------
E|---------------------------


E|--
B|--
G|--
D|--
A|--
E|--

E|--
B|--
G|--
D|--
A|--
E|--

E|--
B|--
G|--
D|--
A|--
E|--

E|--
B|--
G|--
D|--
A|--
E|--

E|--
B|--
G|--
D|--
A|--
E|--

E|--
B|--
G|--
D|--
A|--
E|--

E|--
B|--
G|--
D|--
A|--
E|--
Guitar Tab Creator is intended to store guitar tab created through the tool. It currently does not support in-line text editing. Any text you place in here will be lost. If you need to comment on your tab, please use the "Tab Notes" section located below.