solenzara

(/) Slide Up  (\) Slide Down  (h) Hammer On  (p) Pull Off  (b) Bend (r) Release (v) Vibrato

E|--5--10--8--6--6--|--10--9--10--12--10--8--6--5-----5--|-----
B|------------------|------------------------------6-----|-----
G|------------------|------------------------------------|-----
D|------------------|------------------------------------|-----
A|------------------|------------------------------------|-----
E|------------------|------------------------------------|-----



E|-----6--5-----------|--6--5-----------------5-----|--
B|--6--------8--6--5--|--------8--6--5--6--8-----7--|--
G|--------------------|-----------------------------|--
D|--------------------|-----------------------------|--
A|--------------------|-----------------------------|--
E|--------------------|-----------------------------|--



E|--6--5--------------|--5--5-----------------|-----------------------|--
B|--------8--6--5-----|--------6--6-----------|--8--6--5--------------|--
G|-----------------7--|--------------7--7-----|-----------7--6--------|--
D|--------------------|--------------------8--|-----------------8--7--|--
A|--------------------|-----------------------|-----------------------|--
E|--------------------|-----------------------|-----------------------|--



E|--------------------------|-----5--6--6--5-----------|--
B|-----5--6--6--5-----8--8--|--8--------------8--6--6--|--
G|--7--------------7--------|--------------------------|--
D|--------------------------|--------------------------|--
A|--------------------------|--------------------------|--
E|--------------------------|--------------------------|--



E|-----------------------
B|--8--6--5--------5-----
G|-----------7--6-----7--
D|-----------------------
A|-----------------------
E|-----------------------
http://www.guitartabcreator.com
Guitar Tab Creator is intended to store guitar tab created through the tool. It currently does not support in-line text editing. Any text you place in here will be lost. If you need to comment on your tab, please use the "Tab Notes" section located below.