new spanish

(/) Slide Up  (\) Slide Down  (h) Hammer On  (p) Pull Off  (b) Bend (r) Release (v) Vibrato

Stave 1:

E|--0--------0-----------|-----------------------|-----0--1--0-----0-----|--
B|-----3--1-----3--1--0--|-----0--1--0-----0--1--|--3-----------3-----3--|--
G|-----------------------|--2-----------2--------|-----------------------|--
D|-----------------------|-----------------------|-----------------------|--
A|-----------------------|-----------------------|-----------------------|--
E|-----------------------|-----------------------|-----------------------|--

Stave 2:

E|--------0--------------|-----------------------|--0--5--7--8--7--5--0--|--
B|--1--3-----3--1--3--1--|--0--1--3--1--0--1--0--|-----------------------|--
G|-----------------------|-----------------------|-----------------------|--
D|-----------------------|-----------------------|-----------------------|--
A|-----------------------|-----------------------|-----------------------|--
E|-----------------------|-----------------------|-----------------------|--

Stave 3:

E|--8--7--5--8--7--5--4--|--
B|-----------------------|--
G|-----------------------|--
D|-----------------------|--
A|-----------------------|--
E|-----------------------|--

http://www.guitartabcreator.com
Guitar Tab Creator is intended to store guitar tab created through the tool. It currently does not support in-line text editing. Any text you place in here will be lost. If you need to comment on your tab, please use the "Tab Notes" section located below.