mon amour

(/) Slide Up  (\) Slide Down  (h) Hammer On  (p) Pull Off  (b) Bend (r) Release (v) Vibrato

Stave 1:

E|--0-----0--0-----0--|--0--1--3--5--3--1--0-----0--0-----0--|--0--1--3--5--7--|--
B|-----3--------3-----|-----------------------3--------3-----|-----------------|--
G|--------------------|--------------------------------------|-----------------|--
D|--------------------|--------------------------------------|-----------------|--
A|--------------------|--------------------------------------|-----------------|--
E|--------------------|--------------------------------------|-----------------|--

Stave 2:

E|--3--0-----------|--0-----------------------------|-----------------------|--
B|--------3--1--3--|-----1--0--1--3--0-----0--------|--0--1--3--1--0--------|--
G|-----------------|--------------------2-----2--1--|-----------------2--2--|--
D|-----------------|--------------------------------|-----------------------|--
A|-----------------|--------------------------------|-----------------------|--
E|-----------------|--------------------------------|-----------------------|--

http://www.guitartabcreator.com
Guitar Tab Creator is intended to store guitar tab created through the tool. It currently does not support in-line text editing. Any text you place in here will be lost. If you need to comment on your tab, please use the "Tab Notes" section located below.