malagena

(/) Slide Up  (\) Slide Down  (h) Hammer On  (p) Pull Off  (b) Bend (r) Release (v) Vibrato


E|-----------|-----------|-----------|-----------|-----
B|--------0--|--------0--|-----1--0--|-----------|-----
G|-----1-----|-----1-----|--2--------|--2--0-----|-----
D|--2--------|--2--------|-----------|--------3--|-----
A|-----------|-----------|-----------|-----------|-----
E|-----------|-----------|-----------|-----------|-----



E|--0--|--0--1--3--1--0--|--------------0--|--------------------------------0--|--
B|--0--|--------------0--|--0--3--1--0--1--|-----------0--1--0--3--1--0-----0--|--
G|--1--|--------------1--|--------------2--|--2--1--2--------------------2--1--|--
D|--2--|--------------2--|--------------2--|--------------------------------2--|--
A|--2--|--------------2--|--------------0--|--------------------------------2--|--
E|--0--|--------------0--|--------------0--|--------------------------------0--|--
http://www.guitartabcreator.com
Guitar Tab Creator is intended to store guitar tab created through the tool. It currently does not support in-line text editing. Any text you place in here will be lost. If you need to comment on your tab, please use the "Tab Notes" section located below.