la cumparsita

(/) Slide Up  (\) Slide Down  (h) Hammer On  (p) Pull Off  (b) Bend (r) Release (v) Vibrato


E|--------------|-----------------|-----0--------|-----------------|--
B|-----3--0-----|-----------------|--------1-----|-----------------|--
G|-----------1--|-----------------|-----------2--|-----------------|--
D|--2-----------|--2--3--2--1--2--|--2-----------|--2--3--2--1--2--|--
A|--------------|-----------------|--------------|-----------------|--
E|--------------|-----------------|--------------|-----------------|--



E|--------------|-----------------|--------------|-----------------
B|--------------|-----------------|--------------|-----------------
G|-----2--1--2--|--1--2--1--2-----|-----2--1--2--|--1--2--1--2-----
D|--0-----------|--------------1--|--0-----------|--------------0--
A|--------------|-----------------|--------------|-----------------
E|--------------|-----------------|--------------|-----------------



E|--------------|--------------------|--1--0--------------------|--
B|-----3--0-----|--3--1--0-----------|--------3--1--0-----------|--
G|-----------0--|-----------2--1--2--|-----------------2--1--2--|--
D|--2-----------|--------------------|--------------------------|--
A|--------------|--------------------|--------------------------|--
E|--------------|--------------------|--------------------------|--



E|--
B|--
G|--
D|--
A|--
E|--
http://www.guitartabcreator.com
Guitar Tab Creator is intended to store guitar tab created through the tool. It currently does not support in-line text editing. Any text you place in here will be lost. If you need to comment on your tab, please use the "Tab Notes" section located below.