7ana elsakran

(/) Slide Up  (\) Slide Down  (h) Hammer On  (p) Pull Off  (b) Bend (r) Release (v) Vibrato
E|--0--5--4--5--7--5--|--0--3--1--0-----0--|--0--5--4--5--7--5--|--0--3--1--0--------|--
B|--------------------|--------------3-----|--------------------|--------------3--3--|--
G|--------------------|--------------------|--------------------|--------------------|--
D|--------------------|--------------------|--------------------|--------------------|--
A|--------------------|--------------------|--------------------|--------------------|--
E|--------------------|--------------------|--------------------|--------------------|--



E|-----0--1--1--0--0--------------0--0-----------------------0--4--5--8--7--|--
B|--3-----------------3--1--1--3--------3--3--1--0--0--1--3-----------------|--
G|--------------------------------------------------------------------------|--
D|--------------------------------------------------------------------------|--
A|--------------------------------------------------------------------------|--
E|--------------------------------------------------------------------------|--



E|--8--7--4--5--|--8--7--4--5--|--8--7--5--7--5--3--5--3--1--0--4--5--|--
B|--------------|--------------|--------------------------------------|--
G|--------------|--------------|--------------------------------------|--
D|--------------|--------------|--------------------------------------|--
A|--------------|--------------|--------------------------------------|--
E|--------------|--------------|--------------------------------------|--



E|--5--5--3--1--0--3--3--1--0-----1--1--0-----0--1--4--5--|--0--------------------------------|--
B|-----------------------------3-----------3--------------|-----3--3--3--1--1--1--0--0--------|--
G|--------------------------------------------------------|-----------------------------2--2--|--
D|--------------------------------------------------------|-----------------------------------|--
A|--------------------------------------------------------|-----------------------------------|--
E|--------------------------------------------------------|-----------------------------------|--



E|--0--------------------------------5--|--
B|-----3--3--3--1--1--1--0--0-----------|--
G|-----------------------------2--2-----|--
D|--------------------------------------|--
A|--------------------------------------|--
E|--------------------------------------|--
http://www.guitartabcreator.com
Guitar Tab Creator is intended to store guitar tab created through the tool. It currently does not support in-line text editing. Any text you place in here will be lost. If you need to comment on your tab, please use the "Tab Notes" section located below.