لما بدا يتثني

(/) Slide Up  (\) Slide Down  (h) Hammer On  (p) Pull Off  (b) Bend (r) Release (v) Vibrato


E|-----------------------------------------|-----------------------------------------|--
B|--------------1--------------------------|--------------1--------------------------|--
G|-----0--2--3-----3--3--2--2--0--0-----0--|-----0--2--3-----3--3--2--2--0--0-----0--|--
D|--0--------------------------------4-----|--0--------------------------------4-----|--
A|-----------------------------------------|-----------------------------------------|--
E|-----------------------------------------|-----------------------------------------|--



E|-----------------------------------|-----------------------------|--
B|--------1--3-----------------------|-----------------------------|--
G|--2--3--------3--2--2--0--0-----0--|--2-----0--------------------|--
D|-----------------------------4-----|-----4-----0--4--1--4--1--0--|--
A|-----------------------------------|-----------------------------|--
E|-----------------------------------|-----------------------------|--



E|--------------------------------
B|--4--1--3-----------------------
G|-----------3--2--2--0--0-----0--
D|--------------------------4-----
A|--------------------------------
E|--------------------------------
http://www.guitartabcreator.com
Guitar Tab Creator is intended to store guitar tab created through the tool. It currently does not support in-line text editing. Any text you place in here will be lost. If you need to comment on your tab, please use the "Tab Notes" section located below.