The Thrill is gone

(/) Slide Up  (\) Slide Down  (h) Hammer On  (p) Pull Off  (b) Bend (r) Release (v) Vibrato


E|----------12h14--------------10--12--10--14--12/10--------------------------10--12v-----
B|--12--15-------------10--12-------------------------12--12----------10--12--------------
G|-----------------11---------------------------------------------11----------------------
D|----------------------------------------------------------------------------------------
A|----------------------------------------------------------------------------------------
E|----------------------------------------------------------------------------------------



E|--10v---------------10--12--
B|-------12v------12----------
G|----------------------------
D|----------------------------
A|----------------------------
E|----------------------------
http://www.guitartabcreator.com
Guitar Tab Creator is intended to store guitar tab created through the tool. It currently does not support in-line text editing. Any text you place in here will be lost. If you need to comment on your tab, please use the "Tab Notes" section located below.