Guitar Song (If I Could Make You a Guitar)

(/) Slide Up  (\) Slide Down  (h) Hammer On  (p) Pull Off  (b) Bend (r) Release (v) Vibrato


E|--------4-----4--4-------3--------3-----------1-----1--1---------3--------3-----|--
B|--------4-----4--4-------4-----4--4-----------1-----1--1---------4-----4--4-----|--
G|-----5--5-----5--5----5--5--5-----5--0-----1--1-----1--1----4/5--5--5-----5--0--|--
D|--6-----6--6--6--6----------------------3-----3--3--3--3------------------------|--
A|--------------------------------------------------------------------------------|--
E|--------------------------------------------------------------------------------|--



E|--------------------------------------------------------------|--
B|--------------------7/8---------------------------------------|--
G|--8--8--8--8--8--5-------8v------5b6r5b6r5--------4/5--8------|--
D|--------------------------------------------8--6----------5v--|--
A|--------------------------------------------------------------|--
E|--------------------------------------------------------------|--



E|--------------------7/8------|-----
B|--9--9--9--9--9----------8v--|-----
G|-----------------8-----------|-----
D|-----------------------------|-----
A|-----------------------------|-----
E|-----------------------------|-----



E|--4--6------3--4--3------1--3--1------3--4--3--
B|--4--4------4--4--4------1--1--1------4--4--4--
G|--5--5------5--5--5------1--1--1------5--5--5--
D|--6--6-------------------3--3--3---------------
A|-----------------------------------------------
E|-----------------------------------------------
http://www.guitartabcreator.com
Guitar Tab Creator is intended to store guitar tab created through the tool. It currently does not support in-line text editing. Any text you place in here will be lost. If you need to comment on your tab, please use the "Tab Notes" section located below.