Skrillex Scary Monster And Nice Sprites

(/) Slide Up  (\) Slide Down  (h) Hammer On  (p) Pull Off  (b) Bend (r) Release (v) Vibrato


E|-----------------------------------------------------------------3-----------1-----------
B|--------------------------------------------------------------------3-----------1--------
G|-----------3-----7--5--3-----------------------------------------------3-----------2-----
D|--5--3--5-----5-----------3--1--0--3--1--0--------0-----------0-----------5-----------3--
A|--------------------------------------------3--1-----1-----1-----------------------------
E|--------------------------------------------------------3--------------------------------


E|-----------------------------------------------------------------3-----------1-----------
B|--------------------------------------------------------------------3-----------1--------
G|-----------3-----7--5--3-----------------------------------------------3-----------2-----
D|--5--3--5-----5-----------3--1--0--3--1--0--------0-----------0-----------5-----------3--
A|--------------------------------------------3--1-----1-----1-----------------------------
E|--------------------------------------------------------3--------------------------------

E|-----------------------------------------------------------------3-----------1-----------
B|--------------------------------------------------------------------3-----------1--------
G|-----------3-----7--5--3-----------------------------------------------3-----------2-----
D|--5--3--5-----5-----------3--1--0--3--1--0--------0-----------0-----------5-----------3--
A|--------------------------------------------3--1-----1-----1-----------------------------
E|--------------------------------------------------------3--------------------------------

E|-----------------------------------------------------------------3-----------1-----------
B|--------------------------------------------------------------------3-----------1--------
G|-----------3-----7--5--3-----------------------------------------------3-----------2-----
D|--5--3--5-----5-----------3--1--0--3--1--0--------0-----------0-----------5-----------3--
A|--------------------------------------------3--1-----1-----1-----------------------------
E|--------------------------------------------------------3-------------------------------- http://www.guitartabcreator.com
Guitar Tab Creator is intended to store guitar tab created through the tool. It currently does not support in-line text editing. Any text you place in here will be lost. If you need to comment on your tab, please use the "Tab Notes" section located below.